ISO-10303-21;
HEADER;
/* Generated by software containing ST-Developer
 * from STEP Tools, Inc. (www.steptools.com) 
 */

FILE_DESCRIPTION(
/* description */ (''),
/* implementation_level */ '2;1');

FILE_NAME(
/* name */ 
'D:\\Documents\\Projects\\Linear Slider\\CAD\\3-Axis Slider CAD STEP E
xports\\127 x 146.05 x 12.7mm Printable Bearing Part 2.stp',
/* time_stamp */ '2020-09-01T18:56:48+01:00',
/* author */ ('isaac879'),
/* organization */ (''),
/* preprocessor_version */ 'ST-DEVELOPER v18',
/* originating_system */ 'Autodesk Inventor 2020',
/* authorisation */ '');

FILE_SCHEMA (('AUTOMOTIVE_DESIGN { 1 0 10303 214 3 1 1 }'));
ENDSEC;

DATA;
#10=MECHANICAL_DESIGN_GEOMETRIC_PRESENTATION_REPRESENTATION('',(#13),#322);
#11=SHAPE_REPRESENTATION_RELATIONSHIP('SRR','None',#329,#12);
#12=ADVANCED_BREP_SHAPE_REPRESENTATION('',(#14),#321);
#13=STYLED_ITEM('',(#338),#14);
#14=MANIFOLD_SOLID_BREP('Solid1',#168);
#15=TOROIDAL_SURFACE('',#211,68.2625,3.05);
#16=CYLINDRICAL_SURFACE('',#194,67.7625);
#17=CYLINDRICAL_SURFACE('',#203,67.2625);
#18=CYLINDRICAL_SURFACE('',#208,63.5);
#19=FACE_BOUND('',#35,.T.);
#20=FACE_BOUND('',#39,.T.);
#21=PLANE('',#192);
#22=PLANE('',#201);
#23=FACE_OUTER_BOUND('',#33,.T.);
#24=FACE_OUTER_BOUND('',#34,.T.);
#25=FACE_OUTER_BOUND('',#36,.T.);
#26=FACE_OUTER_BOUND('',#37,.T.);
#27=FACE_OUTER_BOUND('',#38,.T.);
#28=FACE_OUTER_BOUND('',#40,.T.);
#29=FACE_OUTER_BOUND('',#41,.T.);
#30=FACE_OUTER_BOUND('',#42,.T.);
#31=FACE_OUTER_BOUND('',#43,.T.);
#32=FACE_OUTER_BOUND('',#44,.T.);
#33=EDGE_LOOP('',(#110,#111,#112,#113,#114));
#34=EDGE_LOOP('',(#115));
#35=EDGE_LOOP('',(#116));
#36=EDGE_LOOP('',(#117,#118,#119,#120,#121,#122));
#37=EDGE_LOOP('',(#123,#124,#125,#126,#127));
#38=EDGE_LOOP('',(#128));
#39=EDGE_LOOP('',(#129));
#40=EDGE_LOOP('',(#130,#131,#132,#133,#134,#135));
#41=EDGE_LOOP('',(#136,#137,#138,#139));
#42=EDGE_LOOP('',(#140,#141,#142,#143));
#43=EDGE_LOOP('',(#144,#145,#146,#147));
#44=EDGE_LOOP('',(#148,#149,#150,#151,#152,#153));
#45=LINE('',#277,#52);
#46=LINE('',#288,#53);
#47=LINE('',#294,#54);
#48=LINE('',#303,#55);
#49=LINE('',#309,#56);
#50=LINE('',#313,#57);
#51=LINE('',#316,#58);
#52=VECTOR('',#219,67.6625);
#53=VECTOR('',#232,67.7625);
#54=VECTOR('',#239,67.1625);
#55=VECTOR('',#250,67.2625);
#56=VECTOR('',#257,63.8);
#57=VECTOR('',#262,63.5);
#58=VECTOR('',#267,63.8);
#59=CIRCLE('',#189,67.5625);
#60=CIRCLE('',#190,67.7625);
#61=CIRCLE('',#191,67.7625);
#62=CIRCLE('',#193,64.1);
#63=CIRCLE('',#195,67.7625);
#64=CIRCLE('',#196,67.7625);
#65=CIRCLE('',#198,67.0625);
#66=CIRCLE('',#199,67.2625);
#67=CIRCLE('',#200,67.2625);
#68=CIRCLE('',#202,64.1);
#69=CIRCLE('',#204,67.2625);
#70=CIRCLE('',#205,67.2625);
#71=CIRCLE('',#207,63.5);
#72=CIRCLE('',#209,63.5);
#73=CIRCLE('',#212,3.05);
#74=VERTEX_POINT('',#274);
#75=VERTEX_POINT('',#276);
#76=VERTEX_POINT('',#278);
#77=VERTEX_POINT('',#282);
#78=VERTEX_POINT('',#285);
#79=VERTEX_POINT('',#286);
#80=VERTEX_POINT('',#291);
#81=VERTEX_POINT('',#293);
#82=VERTEX_POINT('',#295);
#83=VERTEX_POINT('',#299);
#84=VERTEX_POINT('',#302);
#85=VERTEX_POINT('',#304);
#86=VERTEX_POINT('',#308);
#87=VERTEX_POINT('',#312);
#88=EDGE_CURVE('',#74,#74,#59,.T.);
#89=EDGE_CURVE('',#74,#75,#45,.T.);
#90=EDGE_CURVE('',#75,#76,#60,.T.);
#91=EDGE_CURVE('',#76,#75,#61,.T.);
#92=EDGE_CURVE('',#77,#77,#62,.T.);
#93=EDGE_CURVE('',#78,#79,#63,.T.);
#94=EDGE_CURVE('',#79,#76,#46,.T.);
#95=EDGE_CURVE('',#79,#78,#64,.T.);
#96=EDGE_CURVE('',#80,#80,#65,.T.);
#97=EDGE_CURVE('',#80,#81,#47,.T.);
#98=EDGE_CURVE('',#81,#82,#66,.T.);
#99=EDGE_CURVE('',#82,#81,#67,.T.);
#100=EDGE_CURVE('',#83,#83,#68,.T.);
#101=EDGE_CURVE('',#82,#84,#48,.T.);
#102=EDGE_CURVE('',#85,#84,#69,.T.);
#103=EDGE_CURVE('',#84,#85,#70,.T.);
#104=EDGE_CURVE('',#83,#86,#49,.T.);
#105=EDGE_CURVE('',#86,#86,#71,.T.);
#106=EDGE_CURVE('',#86,#87,#50,.T.);
#107=EDGE_CURVE('',#87,#87,#72,.T.);
#108=EDGE_CURVE('',#87,#77,#51,.T.);
#109=EDGE_CURVE('',#79,#84,#73,.T.);
#110=ORIENTED_EDGE('',*,*,#88,.T.);
#111=ORIENTED_EDGE('',*,*,#89,.T.);
#112=ORIENTED_EDGE('',*,*,#90,.T.);
#113=ORIENTED_EDGE('',*,*,#91,.T.);
#114=ORIENTED_EDGE('',*,*,#89,.F.);
#115=ORIENTED_EDGE('',*,*,#88,.F.);
#116=ORIENTED_EDGE('',*,*,#92,.F.);
#117=ORIENTED_EDGE('',*,*,#93,.T.);
#118=ORIENTED_EDGE('',*,*,#94,.T.);
#119=ORIENTED_EDGE('',*,*,#90,.F.);
#120=ORIENTED_EDGE('',*,*,#91,.F.);
#121=ORIENTED_EDGE('',*,*,#94,.F.);
#122=ORIENTED_EDGE('',*,*,#95,.T.);
#123=ORIENTED_EDGE('',*,*,#96,.T.);
#124=ORIENTED_EDGE('',*,*,#97,.T.);
#125=ORIENTED_EDGE('',*,*,#98,.T.);
#126=ORIENTED_EDGE('',*,*,#99,.T.);
#127=ORIENTED_EDGE('',*,*,#97,.F.);
#128=ORIENTED_EDGE('',*,*,#96,.F.);
#129=ORIENTED_EDGE('',*,*,#100,.F.);
#130=ORIENTED_EDGE('',*,*,#98,.F.);
#131=ORIENTED_EDGE('',*,*,#99,.F.);
#132=ORIENTED_EDGE('',*,*,#101,.T.);
#133=ORIENTED_EDGE('',*,*,#102,.F.);
#134=ORIENTED_EDGE('',*,*,#103,.F.);
#135=ORIENTED_EDGE('',*,*,#101,.F.);
#136=ORIENTED_EDGE('',*,*,#100,.T.);
#137=ORIENTED_EDGE('',*,*,#104,.T.);
#138=ORIENTED_EDGE('',*,*,#105,.T.);
#139=ORIENTED_EDGE('',*,*,#104,.F.);
#140=ORIENTED_EDGE('',*,*,#105,.F.);
#141=ORIENTED_EDGE('',*,*,#106,.T.);
#142=ORIENTED_EDGE('',*,*,#107,.F.);
#143=ORIENTED_EDGE('',*,*,#106,.F.);
#144=ORIENTED_EDGE('',*,*,#107,.T.);
#145=ORIENTED_EDGE('',*,*,#108,.T.);
#146=ORIENTED_EDGE('',*,*,#92,.T.);
#147=ORIENTED_EDGE('',*,*,#108,.F.);
#148=ORIENTED_EDGE('',*,*,#93,.F.);
#149=ORIENTED_EDGE('',*,*,#95,.F.);
#150=ORIENTED_EDGE('',*,*,#109,.T.);
#151=ORIENTED_EDGE('',*,*,#103,.T.);
#152=ORIENTED_EDGE('',*,*,#102,.T.);
#153=ORIENTED_EDGE('',*,*,#109,.F.);
#154=CONICAL_SURFACE('',#188,67.6625,0.785398163397437);
#155=CONICAL_SURFACE('',#197,67.1625,0.785398163397437);
#156=CONICAL_SURFACE('',#206,63.8,0.785398163397444);
#157=CONICAL_SURFACE('',#210,63.8,0.785398163397445);
#158=ADVANCED_FACE('',(#23),#154,.T.);
#159=ADVANCED_FACE('',(#24,#19),#21,.F.);
#160=ADVANCED_FACE('',(#25),#16,.T.);
#161=ADVANCED_FACE('',(#26),#155,.T.);
#162=ADVANCED_FACE('',(#27,#20),#22,.T.);
#163=ADVANCED_FACE('',(#28),#17,.T.);
#164=ADVANCED_FACE('',(#29),#156,.F.);
#165=ADVANCED_FACE('',(#30),#18,.F.);
#166=ADVANCED_FACE('',(#31),#157,.F.);
#167=ADVANCED_FACE('',(#32),#15,.F.);
#168=CLOSED_SHELL('',(#158,#159,#160,#161,#162,#163,#164,#165,#166,#167));
#169=DERIVED_UNIT_ELEMENT(#171,1.);
#170=DERIVED_UNIT_ELEMENT(#324,3.);
#171=(
MASS_UNIT()
NAMED_UNIT(*)
SI_UNIT($,.GRAM.)
);
#172=DERIVED_UNIT((#169,#170));
#173=MEASURE_REPRESENTATION_ITEM('density measure',
POSITIVE_RATIO_MEASURE(1.),#172);
#174=PROPERTY_DEFINITION_REPRESENTATION(#179,#176);
#175=PROPERTY_DEFINITION_REPRESENTATION(#180,#177);
#176=REPRESENTATION('material name',(#178),#321);
#177=REPRESENTATION('density',(#173),#321);
#178=DESCRIPTIVE_REPRESENTATION_ITEM('Generic','Generic');
#179=PROPERTY_DEFINITION('material property','material name',#331);
#180=PROPERTY_DEFINITION('material property','density of part',#331);
#181=DATE_TIME_ROLE('creation_date');
#182=APPLIED_DATE_AND_TIME_ASSIGNMENT(#183,#181,(#331));
#183=DATE_AND_TIME(#184,#185);
#184=CALENDAR_DATE(2020,11,5);
#185=LOCAL_TIME(1,40,16.,#186);
#186=COORDINATED_UNIVERSAL_TIME_OFFSET(0,0,.BEHIND.);
#187=AXIS2_PLACEMENT_3D('placement',#272,#213,#214);
#188=AXIS2_PLACEMENT_3D('',#273,#215,#216);
#189=AXIS2_PLACEMENT_3D('',#275,#217,#218);
#190=AXIS2_PLACEMENT_3D('',#279,#220,#221);
#191=AXIS2_PLACEMENT_3D('',#280,#222,#223);
#192=AXIS2_PLACEMENT_3D('',#281,#224,#225);
#193=AXIS2_PLACEMENT_3D('',#283,#226,#227);
#194=AXIS2_PLACEMENT_3D('',#284,#228,#229);
#195=AXIS2_PLACEMENT_3D('',#287,#230,#231);
#196=AXIS2_PLACEMENT_3D('',#289,#233,#234);
#197=AXIS2_PLACEMENT_3D('',#290,#235,#236);
#198=AXIS2_PLACEMENT_3D('',#292,#237,#238);
#199=AXIS2_PLACEMENT_3D('',#296,#240,#241);
#200=AXIS2_PLACEMENT_3D('',#297,#242,#243);
#201=AXIS2_PLACEMENT_3D('',#298,#244,#245);
#202=AXIS2_PLACEMENT_3D('',#300,#246,#247);
#203=AXIS2_PLACEMENT_3D('',#301,#248,#249);
#204=AXIS2_PLACEMENT_3D('',#305,#251,#252);
#205=AXIS2_PLACEMENT_3D('',#306,#253,#254);
#206=AXIS2_PLACEMENT_3D('',#307,#255,#256);
#207=AXIS2_PLACEMENT_3D('',#310,#258,#259);
#208=AXIS2_PLACEMENT_3D('',#311,#260,#261);
#209=AXIS2_PLACEMENT_3D('',#314,#263,#264);
#210=AXIS2_PLACEMENT_3D('',#315,#265,#266);
#211=AXIS2_PLACEMENT_3D('',#317,#268,#269);
#212=AXIS2_PLACEMENT_3D('',#318,#270,#271);
#213=DIRECTION('axis',(0.,0.,1.));
#214=DIRECTION('refdir',(1.,0.,0.));
#215=DIRECTION('center_axis',(0.,0.,1.));
#216=DIRECTION('ref_axis',(1.,0.,0.));
#217=DIRECTION('center_axis',(0.,0.,1.));
#218=DIRECTION('ref_axis',(1.,0.,0.));
#219=DIRECTION('',(-0.70710678118654,8.65956056235484E-17,0.707106781186555));
#220=DIRECTION('center_axis',(0.,0.,-1.));
#221=DIRECTION('ref_axis',(1.,0.,0.));
#222=DIRECTION('center_axis',(0.,0.,-1.));
#223=DIRECTION('ref_axis',(1.,0.,0.));
#224=DIRECTION('center_axis',(0.,0.,1.));
#225=DIRECTION('ref_axis',(1.,0.,0.));
#226=DIRECTION('center_axis',(0.,0.,-1.));
#227=DIRECTION('ref_axis',(-1.,0.,0.));
#228=DIRECTION('center_axis',(0.,0.,-1.));
#229=DIRECTION('ref_axis',(-1.,0.,0.));
#230=DIRECTION('center_axis',(0.,0.,-1.));
#231=DIRECTION('ref_axis',(1.,0.,0.));
#232=DIRECTION('',(0.,0.,-1.));
#233=DIRECTION('center_axis',(0.,0.,-1.));
#234=DIRECTION('ref_axis',(1.,0.,0.));
#235=DIRECTION('center_axis',(0.,0.,-1.));
#236=DIRECTION('ref_axis',(1.,0.,0.));
#237=DIRECTION('center_axis',(0.,0.,-1.));
#238=DIRECTION('ref_axis',(1.,0.,0.));
#239=DIRECTION('',(-0.70710678118654,-8.65956056235484E-17,-0.707106781186555));
#240=DIRECTION('center_axis',(0.,0.,1.));
#241=DIRECTION('ref_axis',(1.,0.,0.));
#242=DIRECTION('center_axis',(0.,0.,1.));
#243=DIRECTION('ref_axis',(1.,0.,0.));
#244=DIRECTION('center_axis',(0.,0.,1.));
#245=DIRECTION('ref_axis',(1.,0.,0.));
#246=DIRECTION('center_axis',(0.,0.,1.));
#247=DIRECTION('ref_axis',(-1.,0.,0.));
#248=DIRECTION('center_axis',(0.,0.,-1.));
#249=DIRECTION('ref_axis',(-1.,0.,0.));
#250=DIRECTION('',(0.,0.,-1.));
#251=DIRECTION('center_axis',(0.,0.,-1.));
#252=DIRECTION('ref_axis',(1.,0.,0.));
#253=DIRECTION('center_axis',(0.,0.,-1.));
#254=DIRECTION('ref_axis',(1.,0.,0.));
#255=DIRECTION('center_axis',(0.,0.,1.));
#256=DIRECTION('ref_axis',(-1.,0.,0.));
#257=DIRECTION('',(-0.707106781186545,-8.6595605623549E-17,-0.70710678118655));
#258=DIRECTION('center_axis',(0.,0.,-1.));
#259=DIRECTION('ref_axis',(-1.,0.,0.));
#260=DIRECTION('center_axis',(0.,0.,1.));
#261=DIRECTION('ref_axis',(-1.,0.,0.));
#262=DIRECTION('',(0.,0.,-1.));
#263=DIRECTION('center_axis',(0.,0.,1.));
#264=DIRECTION('ref_axis',(-1.,0.,0.));
#265=DIRECTION('center_axis',(0.,0.,-1.));
#266=DIRECTION('ref_axis',(-1.,0.,0.));
#267=DIRECTION('',(0.707106781186545,8.6595605623549E-17,-0.70710678118655));
#268=DIRECTION('center_axis',(0.,0.,-1.));
#269=DIRECTION('ref_axis',(-1.,0.,0.));
#270=DIRECTION('center_axis',(1.22464679914735E-16,1.,0.));
#271=DIRECTION('ref_axis',(1.,-1.22464679914735E-16,0.));
#272=CARTESIAN_POINT('',(0.,0.,0.));
#273=CARTESIAN_POINT('Origin',(0.,0.,0.1));
#274=CARTESIAN_POINT('',(-67.5625,-8.27401993673931E-15,0.));
#275=CARTESIAN_POINT('Origin',(0.,0.,0.));
#276=CARTESIAN_POINT('',(-67.7625,8.29851287272225E-15,0.2));
#277=CARTESIAN_POINT('',(-67.6625,8.28626640473078E-15,0.1));
#278=CARTESIAN_POINT('',(67.7625,-8.29851287272225E-15,0.2));
#279=CARTESIAN_POINT('Origin',(0.,0.,0.2));
#280=CARTESIAN_POINT('Origin',(0.,0.,0.2));
#281=CARTESIAN_POINT('Origin',(0.,0.,0.));
#282=CARTESIAN_POINT('',(64.1,-7.84998598253453E-15,0.));
#283=CARTESIAN_POINT('Origin',(0.,0.,0.));
#284=CARTESIAN_POINT('Origin',(0.,0.,1.67063136166696));
#285=CARTESIAN_POINT('',(-67.7625,0.,3.34126272333392));
#286=CARTESIAN_POINT('',(67.7625,-8.29851287272225E-15,3.34126272333392));
#287=CARTESIAN_POINT('Origin',(0.,0.,3.34126272333392));
#288=CARTESIAN_POINT('',(67.7625,-8.29851287272225E-15,1.67063136166696));
#289=CARTESIAN_POINT('Origin',(0.,0.,3.34126272333392));
#290=CARTESIAN_POINT('Origin',(0.,0.,12.6));
#291=CARTESIAN_POINT('',(-67.0625,8.21278759678194E-15,12.7));
#292=CARTESIAN_POINT('Origin',(0.,0.,12.7));
#293=CARTESIAN_POINT('',(-67.2625,-8.23728053276489E-15,12.5));
#294=CARTESIAN_POINT('',(-67.1625,-8.22503406477341E-15,12.6));
#295=CARTESIAN_POINT('',(67.2625,-8.23728053276489E-15,12.5));
#296=CARTESIAN_POINT('Origin',(0.,0.,12.5));
#297=CARTESIAN_POINT('Origin',(0.,0.,12.5));
#298=CARTESIAN_POINT('Origin',(0.,0.,12.7));
#299=CARTESIAN_POINT('',(64.1,7.84998598253453E-15,12.7));
#300=CARTESIAN_POINT('Origin',(0.,0.,12.7));
#301=CARTESIAN_POINT('Origin',(0.,0.,10.9657029534224));
#302=CARTESIAN_POINT('',(67.2625,-8.23728053276489E-15,9.23140590684478));
#303=CARTESIAN_POINT('',(67.2625,-8.23728053276489E-15,10.9657029534224));
#304=CARTESIAN_POINT('',(-67.2625,0.,9.23140590684478));
#305=CARTESIAN_POINT('Origin',(0.,0.,9.23140590684478));
#306=CARTESIAN_POINT('Origin',(0.,0.,9.23140590684478));
#307=CARTESIAN_POINT('Origin',(0.,0.,12.4));
#308=CARTESIAN_POINT('',(63.5,-7.77650717458569E-15,12.1));
#309=CARTESIAN_POINT('',(63.8,7.81324657856011E-15,12.4));
#310=CARTESIAN_POINT('Origin',(0.,0.,12.1));
#311=CARTESIAN_POINT('Origin',(0.,0.,0.));
#312=CARTESIAN_POINT('',(63.5,7.77650717458569E-15,0.6));
#313=CARTESIAN_POINT('',(63.5,7.77650717458569E-15,0.));
#314=CARTESIAN_POINT('Origin',(0.,0.,0.6));
#315=CARTESIAN_POINT('Origin',(0.,0.,0.3));
#316=CARTESIAN_POINT('',(63.8,7.81324657856011E-15,0.3));
#317=CARTESIAN_POINT('Origin',(0.,0.,6.35));
#318=CARTESIAN_POINT('Origin',(68.2625,-8.35974521267962E-15,6.35));
#319=UNCERTAINTY_MEASURE_WITH_UNIT(LENGTH_MEASURE(0.01),#323,
'DISTANCE_ACCURACY_VALUE',
'Maximum model space distance between geometric entities at asserted c
onnectivities');
#320=UNCERTAINTY_MEASURE_WITH_UNIT(LENGTH_MEASURE(0.01),#323,
'DISTANCE_ACCURACY_VALUE',
'Maximum model space distance between geometric entities at asserted c
onnectivities');
#321=(
GEOMETRIC_REPRESENTATION_CONTEXT(3)
GLOBAL_UNCERTAINTY_ASSIGNED_CONTEXT((#319))
GLOBAL_UNIT_ASSIGNED_CONTEXT((#323,#325,#326))
REPRESENTATION_CONTEXT('','3D')
);
#322=(
GEOMETRIC_REPRESENTATION_CONTEXT(3)
GLOBAL_UNCERTAINTY_ASSIGNED_CONTEXT((#320))
GLOBAL_UNIT_ASSIGNED_CONTEXT((#323,#325,#326))
REPRESENTATION_CONTEXT('','3D')
);
#323=(
LENGTH_UNIT()
NAMED_UNIT(*)
SI_UNIT(.MILLI.,.METRE.)
);
#324=(
LENGTH_UNIT()
NAMED_UNIT(*)
SI_UNIT(.CENTI.,.METRE.)
);
#325=(
NAMED_UNIT(*)
PLANE_ANGLE_UNIT()
SI_UNIT($,.RADIAN.)
);
#326=(
NAMED_UNIT(*)
SI_UNIT($,.STERADIAN.)
SOLID_ANGLE_UNIT()
);
#327=SHAPE_DEFINITION_REPRESENTATION(#328,#329);
#328=PRODUCT_DEFINITION_SHAPE('',$,#331);
#329=SHAPE_REPRESENTATION('',(#187),#321);
#330=PRODUCT_DEFINITION_CONTEXT('part definition',#335,'design');
#331=PRODUCT_DEFINITION(
'127 x 146.05 x 12.7mm Printable Bearing Part 2',
'127 x 146.05 x 12.7mm Printable Bearing Part 2',#332,#330);
#332=PRODUCT_DEFINITION_FORMATION('',$,#337);
#333=PRODUCT_RELATED_PRODUCT_CATEGORY(
'127 x 146.05 x 12.7mm Printable Bearing Part 2',
'127 x 146.05 x 12.7mm Printable Bearing Part 2',(#337));
#334=APPLICATION_PROTOCOL_DEFINITION('international standard',
'automotive_design',2009,#335);
#335=APPLICATION_CONTEXT(
'Core Data for Automotive Mechanical Design Process');
#336=PRODUCT_CONTEXT('part definition',#335,'mechanical');
#337=PRODUCT('127 x 146.05 x 12.7mm Printable Bearing Part 2',
'127 x 146.05 x 12.7mm Printable Bearing Part 2',$,(#336));
#338=PRESENTATION_STYLE_ASSIGNMENT((#339));
#339=SURFACE_STYLE_USAGE(.BOTH.,#342);
#340=SURFACE_STYLE_RENDERING_WITH_PROPERTIES($,#346,(#341));
#341=SURFACE_STYLE_TRANSPARENT(0.);
#342=SURFACE_SIDE_STYLE('',(#343,#340));
#343=SURFACE_STYLE_FILL_AREA(#344);
#344=FILL_AREA_STYLE('',(#345));
#345=FILL_AREA_STYLE_COLOUR('',#346);
#346=COLOUR_RGB('',0.749019607843137,0.749019607843137,0.749019607843137);
ENDSEC;
END-ISO-10303-21;
